Popular Guitar Tabs

View previous topic View next topic Go down

Metallica, Fall Out Boy, Guns N' Roses?

75% 75% 
[ 3 ]
0% 0% 
[ 0 ]
25% 25% 
[ 1 ]
 
Total Votes : 4

Popular Guitar Tabs

Post by Man of Valor on Wed Apr 30, 2008 5:37 pm

Post some popular guitar tabs here. Here is The middle (Easy) section of Master of Puppets by Metallica and the intro. (Über spaced out ^.^)


|-------------------------------|

|-------------------------------|

|-9--------7---6---5-----------|

|-9--------7---6---5-----------|
let the last chord ring
|-7--------5---4---3-----------|

|-0-----------------------------|




|--------------------------------------------------------------------|

|--------------------------------------------------------------------|

|--------------------7---6---5---------------------------------------|

|--------------------7---6---5---------------------------------------|

|-----7-----6--------5---4---3---------------------------------------|

|-0-0---0-0---0-0---------------------0-0-7-0-0-6-0-0-5-0-4-0-3-0-2|

____________________________________________________________________________________________________

Middle part XD
|----------------0h2p0-----3-----------------------------------------|

|-------------3--------3-----------3---3-----0-----0-------0-------0-|

|------0----2---2--------2-------0---0---0-------2-------2-------2---|

|----2----0--------------------------------2-----------------0-1------|

|--2---------------------------3---------------0-----0-2-------------2|

|0---------------------------------------------------------------------|
_________________________________________________________________
(middle solo is distorted) play the solo twice)
|----19-15----17-14-------------17-14----15-12---------------------|
|-17-------17-------15-15-15-15-------15-------13-13-13-13--------|
|--------------------------------------------------------------------|
|--------------------------------------------------------------------|
|--------------------------------------------------------------------|
|--------------------------------------------------------------------|


|-15-12----14-12h14p12-11-------------------11-12-14--------------|
|-------13----------------13-12-13-15-13-15------------------------|
|--------------------------------------------------------------------|
|--------------------------------------------------------------------|
|--------------------------------------------------------------------|
|--------------------------------------------------------------------|
_________________________________________________________________

_________________
"There is no spoon"
avatar
Man of Valor
Moderator
Moderator

Posts : 89
Join date : 2008-04-27
Age : 32
Location : As if.

View user profile http://www.youtube.com/evonmindfreak

Back to top Go down

Re: Popular Guitar Tabs

Post by Shadow on Thu May 01, 2008 2:09 pm

Id probably say Metalica is the best of the three

_________________
Shadow:Hmph! Pathetic Humans!

avatar
Shadow
Admin
Admin

Posts : 281
Join date : 2008-04-05
Age : 26
Location : Ha...! does it matter?

View user profile http://superhedgehogs.darkbb.com

Back to top Go down

Re: Popular Guitar Tabs

Post by Man of Valor on Thu May 01, 2008 3:47 pm

me too xD

_________________
"There is no spoon"
avatar
Man of Valor
Moderator
Moderator

Posts : 89
Join date : 2008-04-27
Age : 32
Location : As if.

View user profile http://www.youtube.com/evonmindfreak

Back to top Go down

Re: Popular Guitar Tabs

Post by Man of Valor on Thu May 01, 2008 3:50 pm

come on guys post tabs!!!! i need to learn some new songs!! Wink


Last edited by Man of Valor on Thu May 01, 2008 3:51 pm; edited 1 time in total (Reason for editing : diddn't like the way i put it the first time. too angry sounding xD)

_________________
"There is no spoon"
avatar
Man of Valor
Moderator
Moderator

Posts : 89
Join date : 2008-04-27
Age : 32
Location : As if.

View user profile http://www.youtube.com/evonmindfreak

Back to top Go down

New tab: Tim Burton's The Nightmare Before Christmas - This is Halloween.

Post by Man of Valor on Thu May 01, 2008 5:00 pm

Partially tabbed by -Unknown- Partially tabbed by me. (BTW when i was playing this, my amp started to shout random phrases, ex. "here it is!!!" "Argh! 12th!". I have no idea what they mean but it freaked me out lol)

Intro.
1----------------------------------------------------------------|

2-----------------8-8-8--8-9-------------9-8-8-8--8-9-------9-8|
3----------------------------10-10-10-10--------------10-10----|

4--10-10-10-10--------------------------------------------------|
5--10-10-10-10--------------------------------------------------|

6----------------------------------------------------------------|



Verse: Boys and girls of every age...
1----------------------------------------------------------------|

2--8-8-8-8-8-9--------------------8-9-8--8-8-8-9-11-9-8-------|

3--------------10-10--10-10-10-10------------------------------|

4----------------------------------------------------------------|

5----------------------------------------------------------------|

6----------------------------------------------------------------|


in our town of Halloween... this is Halloween...
1---------------------------------------------------------------------|

2-----------8-9--8-----8-----11-11-11-10-8--11-11-11-10-8--11-----|

3--10-10-10--------8-7----------------------------------------11-10-|

4---------------------------------------------------------------------|

5---------------------------------------------------------------------|



...this is Halloween
1-------------------------------------------------------------------------|

2---------8-9-----12-12-12-11-9--12-12-12-11-9-12------------9-9------|

3--10-8-7-------------------------------------------12-11-9-------------|

4------------------------------------------------------------11----------|

5------------------------------------------------------------------------|

6------------------------------------------------------------------------|

_________________
"There is no spoon"
avatar
Man of Valor
Moderator
Moderator

Posts : 89
Join date : 2008-04-27
Age : 32
Location : As if.

View user profile http://www.youtube.com/evonmindfreak

Back to top Go down

Re: Popular Guitar Tabs

Post by alienchaoftw on Thu May 01, 2008 8:17 pm

EEEEEEEEEE

I tabbed an intro to GN'R, then i pressed preview and when i tried to send it, it erased the whole thing!

btw Guns N' Roses owns all.


Last edited by alienchaoftw on Mon May 05, 2008 8:00 pm; edited 1 time in total
avatar
alienchaoftw
Normal form
Normal form

Posts : 17
Join date : 2008-05-01

View user profile

Back to top Go down

Re: Popular Guitar Tabs

Post by Man of Valor on Sat May 03, 2008 8:22 pm

...ouch. (tip, copy what you do to the clip board just in case, so you can paste it in case you lose it)

_________________
"There is no spoon"
avatar
Man of Valor
Moderator
Moderator

Posts : 89
Join date : 2008-04-27
Age : 32
Location : As if.

View user profile http://www.youtube.com/evonmindfreak

Back to top Go down

Re: Popular Guitar Tabs

Post by alienchaoftw on Mon May 05, 2008 7:59 pm

doh, forgot to do that. whenever im posting on a tab website i always copy it to notepad and save it.
avatar
alienchaoftw
Normal form
Normal form

Posts : 17
Join date : 2008-05-01

View user profile

Back to top Go down

Re: Popular Guitar Tabs

Post by Man of Valor on Tue May 06, 2008 3:29 pm

word up.

_________________
"There is no spoon"
avatar
Man of Valor
Moderator
Moderator

Posts : 89
Join date : 2008-04-27
Age : 32
Location : As if.

View user profile http://www.youtube.com/evonmindfreak

Back to top Go down

We are going to be friends - The white Stripes

Post by Man of Valor on Sat May 10, 2008 5:11 pm

We are going to be friends - The White Stripes - tabbed by Grant Yeardley





G
fall is here, hear the yell
G
back to school, ring the bell
C
brand new shoes, walking blues
G
climb the fence, books and pens
D C G
i can tell that we are gonna be friends

G
walk with me, suzy lee
G
through the park, and by the tree
C
we will rest upon the ground
G
and look at all the bugs we've found
D C G
then safetly walk to school without a sound

G
well here we are, no one else
G
we walked to school all by ourselves
C
there's dirt on our uniforms
G
from chasing all the ants and worms
D C G
we clean up and now it's time to learn

G
numbers. letters, learn to spell
G
noun, and books, and show and tell
C
at playtime we will throw the ball
G
back to class, through the hall
D C D
teacher marks our height against the wall

C G
and we don't noticeany time pass
C G
we don't notice anything
D
we sit side by side in every class
C
teacher thinks that i sound funny
D
but she likes the way you sing

G
tonight i'll dream while i'm in bed
G
when silly songs go through my head
C
about the bugs and alphabet
G
and when i wake tomorrow i'll bet
D C G
that you and i will walk together again
D C G
(cuase i can tll that we are going to be friends)

_________________
"There is no spoon"
avatar
Man of Valor
Moderator
Moderator

Posts : 89
Join date : 2008-04-27
Age : 32
Location : As if.

View user profile http://www.youtube.com/evonmindfreak

Back to top Go down

Re: Popular Guitar Tabs

Post by Sesshomaru on Sat May 10, 2008 10:04 pm

I don't know any guitar tabs, sorry.
avatar
Sesshomaru
Moderator
Moderator

Posts : 13
Join date : 2008-05-09
Age : 26

View user profile

Back to top Go down

Re: Popular Guitar Tabs

Post by Chulance/Beckoth on Sun May 11, 2008 10:07 pm

I'm like sesshomaru I don't know guitar tabs.

Chulance/Beckoth
Normal form
Normal form

Posts : 87
Join date : 2008-04-25

View user profile

Back to top Go down

Re: Popular Guitar Tabs

Post by Man of Valor on Mon May 12, 2008 12:07 pm

np

_________________
"There is no spoon"
avatar
Man of Valor
Moderator
Moderator

Posts : 89
Join date : 2008-04-27
Age : 32
Location : As if.

View user profile http://www.youtube.com/evonmindfreak

Back to top Go down

Re: Popular Guitar Tabs

Post by Kaiolino on Mon May 12, 2008 12:07 pm

XD
avatar
Kaiolino
Normal form
Normal form

Posts : 17
Join date : 2008-05-11

View user profile

Back to top Go down

Re: Popular Guitar Tabs

Post by Sponsored content


Sponsored content


Back to top Go down

View previous topic View next topic Back to top

- Similar topics

 
Permissions in this forum:
You cannot reply to topics in this forum